Now I Am An Arsonist/Tabs

From JoCopedia
Jump to: navigation, search



Put tabs


Capo on 6th fret

Verses:
-------

Db (G relative to 6th fret):
E |---------------------------------|--------------------------------|
B |0------------2---------------3---|--------------------------------|
G |----0----------------0-----------|--------------------------------|
D |---------0---------------0-------|--------0---------------0-------|
A |---------------------------------|--------------------------------|
E |3----------------3---------------|3-------------------------------| x2 for intro, then x3 once vocals start

Fm (Bm):                            Gb (C):
E |-------------2-------------------|------------0-------------------|
B |3--------------------3-----------|1-------------------0-----------|
G |---------------------------------|----------------------------1---|
D |---------4---------------4-------|--------2---------------2-------|
A |2----------------2---------------|3---------------3---------------|
E |---------------------------------|--------------------------------|

Eb (Am)                             Absus2 (Dsus2)
E |-------------0-------------------|------------0-------------------|
B |1--------------------1------(0)--|3-------------------3------(0)--|
G |---------------------------------|--------2---------------2-------|
D |---------2---------------2-------|0---------------0---------------|
A |0----------------0---------------|--------------------------------|
E |---------------------------------|--------------------------------|


Eb (Am)                             Absus2 (Dsus2)
E |-------------0-------------------|------------0-------------------|
B |1--------------------1------(0)--|3-------------------3-----------|
G |---------------------------------|--------2---------------2---0---|
D |---------2---------------2-------|0---------------0---------------|
A |0----------------0---------------|--------------------------------|
E |---------------------------------|--------------------------------|

Chorus:
-------

Gbm (Cm):                           Db5 (G5)
E |-------------3-------------------|------------3-------------------|
B |4--------------------4-----------|3-------------------3-----------|
G |---------------------------------|--------------------------------|
D |---------5---------------5-------|--------0---------------0-------|
A |3----------------3---------------|--------------------------------|
E |---------------------------------|3---------------3---------------|

A (Eb):                             E (Bb)
E |---------------------------------|--------------------------------|
B |8--------------------8-----------|3-------------------3-----------|
G |-------------8-------------------|------------3-------------------|
D |---------8---------------8-------|--------3---------------3-------|
A |6----------------6---------------|1---------------1---------------|
E |---------------------------------|--------------------------------|

Gb (C):
E |---------------------------------|--------------------------------|
B |1--------------------1-----------|----1---------------1-----------|
G |-------------0---------------0---|------------0-------------------|
D |---------2---------------2-------|--------2---------------2-------|
A |3----------------3---------------|3---------------3---------------|
E |---------------------------------|--------------------------------|

Repeat first 4x measures, then instead of Gb (C):

Abadd11 (Dadd11):
E |---------------------------------|--------------------------------|
B |3--------------------3-----------|----3---------------3-----------|
G |-------------0---------------0---|------------0---------------0---|
D |---------4---------------4-------|--------4---------------4-------|
A |5----------------5---------------|5---------------5---------------|
E |---------------------------------|--------------------------------|

Notes:
* Db (G) bass note is fretted with thumb
* Some other high notes are added in at the end of each bar for the last verse - I didn't bother tabbing these out

Personal tools